Brown Eyed Girls – My Style (Acoustic) Chord / Tab

here is the acoustic version of the song

i try to transcribe the intro (from piano) to guitar tab, corrections are welcome😀

Brown Eyed Girls – My Style

Intro

|----------8-----------8--7-------------3-----------|
|----8-----------7-------------------3-----3--------|
|----9--9-----9--5--5-------------4-----------4-----|
|----9-----------7-------------4-----------------4--|
|----------------5----------------------------------|
|----8-----------------------3----------------------|

|----------5-----------5--3-------------------------|
|----5--------2--4--------------------8-------------|
|----2--2--------2-----------------7-------7--------|
|----2-----------4--4-----------9-------------9-----|
|----------------2-----------7----------------------|
|----2----------------------------------------------|

|---------7s8----------7s87--------8s10-------------|
|----8-----------7---------------------8------------|
|----9--9-----9--5--5-----------7------------7------|
|----9-----------7-----------5---------------9------|
|----------------5------------------------7---------|
|----8----------------------------------------------|

|--7------------------------------------------------|
|----10--------12s13----------8s10-8----------------|
|-----------9-------11-----8------------------8-----|
|-----------11-------------7---------------7--------|
|--------9------------------------------9-----------|
|-----------------------7------------7--------------|

there is  a chord that i forgot the name so i’ll just write the tab for that chord

i write it as  “G–”

|--x--|
|--3--|
|--4--|
|--3--|
|--x--|
|--4--|

note: if u know the name of this chord, do please tell me :)

>>and then here comes the chord

Reff1

CM7                 D7       GM7 F#m7           B7            Em7

Eoneu byeoreseo wanni nae mam gajilleo wanni

Am7     D7             GM7  CM7      F#m7         B7          Em7
Naman araboge saljjakkung ni mam yeol sun eomni

CM7      D7               GM7

Eotteon yeojal johahaneunji

F#m7                B7          Em7
Ne nune nan an chaneunji

Am7                    D7          GM7
Kkatalseureon nal han ingi haneun

CM7 F#m7          B7           Em7
Nal banhage han neojanha

>>rap part (h

CM7                    D7
My(my) style(style)

GM7
Neoneun wanbyeokhan naui wangjanim

F#m7            B7
My(my) style(style)

Em7
Nae isanghyeongiya wanjeonhi

CM7                                           D7    GM7            Am7
Waenmanhan namjaneun mame chajido anhatdeon nande

F#m7       B7
My(my) style(style)

Em7
Heonde nan beolsseo neoui noye

Am7      D7        GM7 F#m7             B7

Bogo tto bolsurok jaen nae seutairiya

Em7
Ttak nae seutail iya

Am7                D7           GM7     CM7 F#m7 B7
Maltu seonggyeok eolgulkkaji My Style

Em7
(You makes me fall in love with you)

Reff II

CM7                 D7       GM7 F#m7           B7            Em7

Eoneu byeoreseo wanni nae mam gajilleo wanni

Am7     D7             GM7  CM7      F#m7         B7          Em7
Naman araboge saljjakkung ni mam yeol sun eomni
(You got me xoxo)

CM7                   D7         GM7     F#m7      B7              Em9
Eoneu byeoreseo wanni nae mam soge wae wanni

Am7      B7                    GM7 F#m7         B7            Em7
Wae ireoni My Darling nal kkok aetaewoya hani

CM7           D7                  GM7          F#m7           B7           Em7

Jeongmal aein ttawin eopgetji baramdungiwan meolgetji

Am7                       D7          GM7                           CM7
Byeoljarin mwolkka? jambeoreuseun mwolkka?

F#m7                  B7                  Em7
Modeunge nan gunggeumhae

Rap)

CM7           D7
My(my) style(style)

GM7
Neoneun jeokdanghi musimhaji

F#m7           B7
My(my) style(style)

Em7
Malhal ttaedo tuktuk naebaetdeusi haji

Am7                 D7
Naege gwansimi eomna hamyeon

GM7                                  CM7
Geugeon tto aniranikka mwonga

F#m7            B7
My(my) style(style)

Em7
Ireon maeryeokdeongi neon kkachilhaji

Am7                   D7              GM7    F#m7             B7

Geureon seonggyeongmajeo neon nae seutairiya

Em7
Ttak nae seutail iya

Am7          D7        GM7 CM7     F#m7
Miwohallaedo motae nan My Style

B7       Em7
(You makes me fall in love with you)

Back to Reff II

Rap)

Am7          D7
Tic tic toc gipido

GM7          CM7
Michijyo Hit me boy

F#m7
Siganeun ga tic tic toc

B7                                   Em7
Nae sarangui gipido gipeojyeo ga

F#m7 GM7 G–
Michijyo nareul bwajwo Hit me boy

Am7                D7

Haneureseo tteoreojyeonnabwa

GM7                     CM7
Nae mameul da ppaesseurago

F#m7                                                        B7

Nae mame nallinalli nage haji malgo

Em7
Geudae ppallippalli wajwo

Back to Reff II

lyrics source : http://www.lyricsmode.com

    • magdajung
    • June 26th, 2013

    Thank youuuuu!! >___<

    Can you do Cleansing Cream too???

  1. No trackbacks yet.

Leave a Reply

Fill in your details below or click an icon to log in:

WordPress.com Logo

You are commenting using your WordPress.com account. Log Out / Change )

Twitter picture

You are commenting using your Twitter account. Log Out / Change )

Facebook photo

You are commenting using your Facebook account. Log Out / Change )

Google+ photo

You are commenting using your Google+ account. Log Out / Change )

Connecting to %s

%d bloggers like this: